ISO-10303-21;
HEADER;
FILE_DESCRIPTION (( 'STEP AP214' ),
    '1' );
FILE_NAME ('BS1ISOK100108 FULLVAC.STEP',
    '2024-05-22T08:59:13',
    ( '' ),
    ( '' ),
    'SwSTEP 2.0',
    'SolidWorks 2017',
    '' );
FILE_SCHEMA (( 'AUTOMOTIVE_DESIGN' ));
ENDSEC;

DATA;
#1 = CARTESIAN_POINT ( 'NONE',  ( 0.0000000000000000000, -12.00000000000000900, 62.50000000000000000 ) ) ;
#2 = ORIENTED_EDGE ( 'NONE', *, *, #238, .F. ) ;
#3 = SURFACE_STYLE_USAGE ( .BOTH. , #328 ) ;
#4 = AXIS2_PLACEMENT_3D ( 'NONE', #164, #77, #167 ) ;
#5 = CARTESIAN_POINT ( 'NONE',  ( 0.0000000000000000000, -6.688194301613425100, 65.00000000000000000 ) ) ;
#6 = APPLICATION_CONTEXT ( 'automotive_design' ) ;
#7 = VERTEX_POINT ( 'NONE', #52 ) ;
#8 = ORIENTED_EDGE ( 'NONE', *, *, #215, .T. ) ;
#9 = AXIS2_PLACEMENT_3D ( 'NONE', #324, #216, #349 ) ;
#10 = EDGE_CURVE ( 'NONE', #135, #135, #147, .T. ) ;
#11 = PRESENTATION_STYLE_ASSIGNMENT (( #46 ) ) ;
#12 = FACE_OUTER_BOUND ( 'NONE', #209, .T. ) ;
#13 = DIRECTION ( 'NONE',  ( 0.0000000000000000000, 0.0000000000000000000, -1.000000000000000000 ) ) ;
#14 = DIRECTION ( 'NONE',  ( 0.0000000000000000000, 0.0000000000000000000, 1.000000000000000000 ) ) ;
#15 = CIRCLE ( 'NONE', #124, 62.50000000000000000 ) ;
#16 = ORIENTED_EDGE ( 'NONE', *, *, #348, .T. ) ;
#17 = FILL_AREA_STYLE_COLOUR ( '', #38 ) ;
#18 = ADVANCED_FACE ( 'NONE', ( #103, #271 ), #66, .T. ) ;
#19 = FACE_OUTER_BOUND ( 'NONE', #57, .T. ) ;
#20 = EDGE_LOOP ( 'NONE', ( #262 ) ) ;
#21 = DIRECTION ( 'NONE',  ( 0.0000000000000000000, 1.000000000000000000, 0.0000000000000000000 ) ) ;
#22 = FACE_OUTER_BOUND ( 'NONE', #346, .T. ) ;
#23 = ORIENTED_EDGE ( 'NONE', *, *, #348, .F. ) ;
#24 = AXIS2_PLACEMENT_3D ( 'NONE', #306, #234, #280 ) ;
#25 = FACE_OUTER_BOUND ( 'NONE', #217, .T. ) ;
#26 = PRODUCT ( 'BS1ISOK100108 FULLVAC', 'BS1ISOK100108 FULLVAC', '', ( #199 ) ) ;
#27 = EDGE_CURVE ( 'NONE', #108, #108, #267, .T. ) ;
#28 = DIRECTION ( 'NONE',  ( -0.0000000000000000000, -1.000000000000000000, -0.0000000000000000000 ) ) ;
#29 =( NAMED_UNIT ( * ) SI_UNIT ( $, .STERADIAN. ) SOLID_ANGLE_UNIT ( ) );
#30 = AXIS2_PLACEMENT_3D ( 'NONE', #55, #274, #227 ) ;
#31 = DIRECTION ( 'NONE',  ( 0.0000000000000000000, 1.000000000000000000, 0.0000000000000000000 ) ) ;
#32 = SURFACE_STYLE_FILL_AREA ( #191 ) ;
#33 = EDGE_LOOP ( 'NONE', ( #71 ) ) ;
#34 = DIRECTION ( 'NONE',  ( 0.0000000000000000000, 1.000000000000000000, 0.0000000000000000000 ) ) ;
#35 = CARTESIAN_POINT ( 'NONE',  ( 0.0000000000000000000, -6.938893903907228400E-015, 0.0000000000000000000 ) ) ;
#36 = EDGE_CURVE ( 'NONE', #275, #275, #277, .T. ) ;
#37 = ADVANCED_BREP_SHAPE_REPRESENTATION ( 'BS1ISOK100108 FULLVAC', ( #252, #24 ), #132 ) ;
#38 = COLOUR_RGB ( '',0.7921568627450980000, 0.8196078431372548800, 0.9333333333333333500 ) ;
#39 = AXIS2_PLACEMENT_3D ( 'NONE', #210, #94, #96 ) ;
#40 = ADVANCED_FACE ( 'NONE', ( #303, #203 ), #351, .F. ) ;
#41 = ORIENTED_EDGE ( 'NONE', *, *, #215, .F. ) ;
#42 = ADVANCED_FACE ( 'NONE', ( #338, #190 ), #237, .T. ) ;
#43 = PRODUCT_DEFINITION_SHAPE ( 'NONE', 'NONE',  #44 ) ;
#44 = PRODUCT_DEFINITION ( 'UNKNOWN', '', #297, #204 ) ;
#45 = CIRCLE ( 'NONE', #221, 64.82352941176469600 ) ;
#46 = SURFACE_STYLE_USAGE ( .BOTH. , #247 ) ;
#47 = CIRCLE ( 'NONE', #146, 62.50000000000000000 ) ;
#48 = FILL_AREA_STYLE ('',( #17 ) ) ;
#49 = AXIS2_PLACEMENT_3D ( 'NONE', #67, #119, #14 ) ;
#50 = PRESENTATION_STYLE_ASSIGNMENT (( #3 ) ) ;
#51 = EDGE_LOOP ( 'NONE', ( #184 ) ) ;
#52 = CARTESIAN_POINT ( 'NONE',  ( 0.0000000000000000000, -10.00000000000000900, 62.50000000000000000 ) ) ;
#53 =( GEOMETRIC_REPRESENTATION_CONTEXT ( 3 ) GLOBAL_UNCERTAINTY_ASSIGNED_CONTEXT ( ( #341 ) ) GLOBAL_UNIT_ASSIGNED_CONTEXT ( ( #107, #330, #163 ) ) REPRESENTATION_CONTEXT ( 'NONE', 'WORKASPACE' ) );
#54 = CARTESIAN_POINT ( 'NONE',  ( 0.0000000000000000000, -6.938893903907228400E-015, 51.07500000000000300 ) ) ;
#55 = CARTESIAN_POINT ( 'NONE',  ( 0.0000000000000000000, -6.938893903907228400E-015, 0.0000000000000000000 ) ) ;
#56 = FACE_OUTER_BOUND ( 'NONE', #325, .T. ) ;
#57 = EDGE_LOOP ( 'NONE', ( #8 ) ) ;
#58 = CARTESIAN_POINT ( 'NONE',  ( 0.0000000000000000000, -12.00000000000000900, 64.20000000000000300 ) ) ;
#59 = CARTESIAN_POINT ( 'NONE',  ( 0.0000000000000000000, -3.510416792694058600, 64.82352941176469600 ) ) ;
#60 = DIRECTION ( 'NONE',  ( 0.0000000000000000000, 0.0000000000000000000, 1.000000000000000000 ) ) ;
#61 = ORIENTED_EDGE ( 'NONE', *, *, #322, .F. ) ;
#62 = DIRECTION ( 'NONE',  ( 0.0000000000000000000, -1.000000000000000000, 0.0000000000000000000 ) ) ;
#63 = CIRCLE ( 'NONE', #258, 65.00000000000000000 ) ;
#64 = EDGE_LOOP ( 'NONE', ( #116 ) ) ;
#65 = VERTEX_POINT ( 'NONE', #185 ) ;
#66 = CYLINDRICAL_SURFACE ( 'NONE', #109, 65.00000000000000000 ) ;
#67 = CARTESIAN_POINT ( 'NONE',  ( 0.0000000000000000000, -6.688194301613425100, 0.0000000000000000000 ) ) ;
#68 = CARTESIAN_POINT ( 'NONE',  ( 0.0000000000000000000, -3.510416792694058600, 0.0000000000000000000 ) ) ;
#69 = DIRECTION ( 'NONE',  ( 0.0000000000000000000, 1.000000000000000000, 0.0000000000000000000 ) ) ;
#70 = AXIS2_PLACEMENT_3D ( 'NONE', #307, #235, #260 ) ;
#71 = ORIENTED_EDGE ( 'NONE', *, *, #253, .T. ) ;
#72 = DIRECTION ( 'NONE',  ( 0.0000000000000000000, 1.000000000000000000, 0.0000000000000000000 ) ) ;
#73 = AXIS2_PLACEMENT_3D ( 'NONE', #35, #336, #113 ) ;
#74 = DIRECTION ( 'NONE',  ( 0.0000000000000000000, 1.000000000000000000, 0.0000000000000000000 ) ) ;
#75 = VERTEX_POINT ( 'NONE', #111 ) ;
#76 = ORIENTED_EDGE ( 'NONE', *, *, #145, .F. ) ;
#77 = DIRECTION ( 'NONE',  ( 0.0000000000000000000, 1.000000000000000000, 0.0000000000000000000 ) ) ;
#78 = CARTESIAN_POINT ( 'NONE',  ( 0.0000000000000000000, -5.074999999999992200, -51.07500000000000300 ) ) ;
#79 = CONICAL_SURFACE ( 'NONE', #300, 64.20000000000000300, 0.7853981633974450600 ) ;
#80 = EDGE_CURVE ( 'NONE', #353, #353, #175, .T. ) ;
#81 = FACE_BOUND ( 'NONE', #85, .T. ) ;
#82 = DIRECTION ( 'NONE',  ( 0.0000000000000000000, 0.0000000000000000000, 1.000000000000000000 ) ) ;
#83 = DIRECTION ( 'NONE',  ( 0.0000000000000000000, -1.000000000000000000, 0.0000000000000000000 ) ) ;
#84 = FACE_OUTER_BOUND ( 'NONE', #196, .T. ) ;
#85 = EDGE_LOOP ( 'NONE', ( #290 ) ) ;
#86 = AXIS2_PLACEMENT_3D ( 'NONE', #144, #337, #231 ) ;
#87 = APPLICATION_PROTOCOL_DEFINITION ( 'draft international standard', 'automotive_design', 1998, #285 ) ;
#88 = DIRECTION ( 'NONE',  ( 0.0000000000000000000, 0.0000000000000000000, -1.000000000000000000 ) ) ;
#89 = AXIS2_PLACEMENT_3D ( 'NONE', #172, #90, #117 ) ;
#90 = DIRECTION ( 'NONE',  ( 0.0000000000000000000, 1.000000000000000000, 0.0000000000000000000 ) ) ;
#91 = AXIS2_PLACEMENT_3D ( 'NONE', #198, #340, #60 ) ;
#92 = SHAPE_DEFINITION_REPRESENTATION ( #43, #37 ) ;
#93 = EDGE_LOOP ( 'NONE', ( #287 ) ) ;
#94 = DIRECTION ( 'NONE',  ( 0.0000000000000000000, 1.000000000000000000, 0.0000000000000000000 ) ) ;
#95 = FACE_OUTER_BOUND ( 'NONE', #291, .T. ) ;
#96 = DIRECTION ( 'NONE',  ( 0.0000000000000000000, -0.0000000000000000000, 1.000000000000000000 ) ) ;
#97 = ADVANCED_FACE ( 'NONE', ( #153, #12 ), #308, .T. ) ;
#98 = DIRECTION ( 'NONE',  ( 0.0000000000000000000, 0.0000000000000000000, 1.000000000000000000 ) ) ;
#99 = CARTESIAN_POINT ( 'NONE',  ( 0.0000000000000000000, -7.000000000000006200, 0.0000000000000000000 ) ) ;
#100 = FACE_OUTER_BOUND ( 'NONE', #64, .T. ) ;
#101 = EDGE_LOOP ( 'NONE', ( #76 ) ) ;
#102 = AXIS2_PLACEMENT_3D ( 'NONE', #283, #310, #339 ) ;
#103 = FACE_OUTER_BOUND ( 'NONE', #33, .T. ) ;
#104 = DIRECTION ( 'NONE',  ( 0.0000000000000000000, 0.0000000000000000000, 1.000000000000000000 ) ) ;
#105 = AXIS2_PLACEMENT_3D ( 'NONE', #177, #21, #98 ) ;
#106 = CARTESIAN_POINT ( 'NONE',  ( 0.0000000000000000000, -12.50102254169809700, 0.0000000000000000000 ) ) ;
#107 =( LENGTH_UNIT ( ) NAMED_UNIT ( * ) SI_UNIT ( .MILLI., .METRE. ) );
#108 = VERTEX_POINT ( 'NONE', #54 ) ;
#109 = AXIS2_PLACEMENT_3D ( 'NONE', #250, #329, #332 ) ;
#110 = ORIENTED_EDGE ( 'NONE', *, *, #259, .T. ) ;
#111 = CARTESIAN_POINT ( 'NONE',  ( 0.0000000000000000000, -10.00000000000000900, -54.10000000000000100 ) ) ;
#112 = ORIENTED_EDGE ( 'NONE', *, *, #265, .T. ) ;
#113 = DIRECTION ( 'NONE',  ( 0.0000000000000000000, 0.0000000000000000000, 1.000000000000000000 ) ) ;
#114 = CARTESIAN_POINT ( 'NONE',  ( 0.0000000000000000000, -10.00000000000000900, 0.0000000000000000000 ) ) ;
#115 = CYLINDRICAL_SURFACE ( 'NONE', #226, 62.50000000000000000 ) ;
#116 = ORIENTED_EDGE ( 'NONE', *, *, #188, .F. ) ;
#117 = DIRECTION ( 'NONE',  ( 0.0000000000000000000, 0.0000000000000000000, 1.000000000000000000 ) ) ;
#118 = EDGE_LOOP ( 'NONE', ( #354 ) ) ;
#119 = DIRECTION ( 'NONE',  ( 0.0000000000000000000, 1.000000000000000000, 0.0000000000000000000 ) ) ;
#120 = AXIS2_PLACEMENT_3D ( 'NONE', #139, #31, #104 ) ;
#121 = ADVANCED_FACE ( 'NONE', ( #81, #130 ), #257, .T. ) ;
#122 = ORIENTED_EDGE ( 'NONE', *, *, #27, .F. ) ;
#123 = ADVANCED_FACE ( 'NONE', ( #295, #225 ), #319, .F. ) ;
#124 = AXIS2_PLACEMENT_3D ( 'NONE', #126, #323, #298 ) ;
#125 = ADVANCED_FACE ( 'NONE', ( #249, #25 ), #263, .T. ) ;
#126 = CARTESIAN_POINT ( 'NONE',  ( 0.0000000000000000000, -12.00000000000000900, 0.0000000000000000000 ) ) ;
#127 = EDGE_LOOP ( 'NONE', ( #220 ) ) ;
#128 =( NAMED_UNIT ( * ) SI_UNIT ( $, .STERADIAN. ) SOLID_ANGLE_UNIT ( ) );
#129 = VERTEX_POINT ( 'NONE', #278 ) ;
#130 = FACE_OUTER_BOUND ( 'NONE', #168, .T. ) ;
#131 = EDGE_LOOP ( 'NONE', ( #2 ) ) ;
#132 =( GEOMETRIC_REPRESENTATION_CONTEXT ( 3 ) GLOBAL_UNCERTAINTY_ASSIGNED_CONTEXT ( ( #243 ) ) GLOBAL_UNIT_ASSIGNED_CONTEXT ( ( #304, #137, #29 ) ) REPRESENTATION_CONTEXT ( 'NONE', 'WORKASPACE' ) );
#133 = DIRECTION ( 'NONE',  ( 0.0000000000000000000, 0.0000000000000000000, 1.000000000000000000 ) ) ;
#134 = FILL_AREA_STYLE_COLOUR ( '', #173 ) ;
#135 = VERTEX_POINT ( 'NONE', #222 ) ;
#136 = ORIENTED_EDGE ( 'NONE', *, *, #259, .F. ) ;
#137 =( NAMED_UNIT ( * ) PLANE_ANGLE_UNIT ( ) SI_UNIT ( $, .RADIAN. ) );
#138 = DIRECTION ( 'NONE',  ( 0.0000000000000000000, 0.0000000000000000000, -1.000000000000000000 ) ) ;
#139 = CARTESIAN_POINT ( 'NONE',  ( 0.0000000000000000000, -6.688194301613425100, 0.0000000000000000000 ) ) ;
#140 = VERTEX_POINT ( 'NONE', #78 ) ;
#141 = MECHANICAL_DESIGN_GEOMETRIC_PRESENTATION_REPRESENTATION (  '', ( #233 ), #53 ) ;
#142 = EDGE_LOOP ( 'NONE', ( #197 ) ) ;
#143 = EDGE_LOOP ( 'NONE', ( #16 ) ) ;
#144 = CARTESIAN_POINT ( 'NONE',  ( 64.20000000000000300, -12.00000000000000900, 0.0000000000000000000 ) ) ;
#145 = EDGE_CURVE ( 'NONE', #75, #75, #214, .T. ) ;
#146 = AXIS2_PLACEMENT_3D ( 'NONE', #242, #179, #218 ) ;
#147 = CIRCLE ( 'NONE', #4, 64.82352941176471000 ) ;
#148 = ADVANCED_FACE ( 'NONE', ( #174, #95 ), #286, .F. ) ;
#149 = VERTEX_POINT ( 'NONE', #5 ) ;
#150 = EDGE_LOOP ( 'NONE', ( #112 ) ) ;
#151 = AXIS2_PLACEMENT_3D ( 'NONE', #170, #62, #284 ) ;
#152 = CONICAL_SURFACE ( 'NONE', #105, 65.00000000000000000, 0.7853981633974450600 ) ;
#153 = FACE_BOUND ( 'NONE', #93, .T. ) ;
#154 = DIRECTION ( 'NONE',  ( -0.0000000000000000000, -1.000000000000000000, -0.0000000000000000000 ) ) ;
#155 = FACE_OUTER_BOUND ( 'NONE', #159, .T. ) ;
#156 = ORIENTED_EDGE ( 'NONE', *, *, #36, .F. ) ;
#157 = AXIS2_PLACEMENT_3D ( 'NONE', #114, #288, #13 ) ;
#158 = FACE_BOUND ( 'NONE', #344, .T. ) ;
#159 = EDGE_LOOP ( 'NONE', ( #333 ) ) ;
#160 = DIRECTION ( 'NONE',  ( 0.0000000000000000000, 1.000000000000000000, 0.0000000000000000000 ) ) ;
#161 = AXIS2_PLACEMENT_3D ( 'NONE', #99, #273, #335 ) ;
#162 = CARTESIAN_POINT ( 'NONE',  ( 0.0000000000000000000, -5.074999999999992200, 0.0000000000000000000 ) ) ;
#163 =( NAMED_UNIT ( * ) SI_UNIT ( $, .STERADIAN. ) SOLID_ANGLE_UNIT ( ) );
#164 = CARTESIAN_POINT ( 'NONE',  ( 0.0000000000000000000, -6.489583207305955200, 0.0000000000000000000 ) ) ;
#165 = DIRECTION ( 'NONE',  ( 0.0000000000000000000, 0.0000000000000000000, 1.000000000000000000 ) ) ;
#166 = CIRCLE ( 'NONE', #30, 64.20000000000000300 ) ;
#167 = DIRECTION ( 'NONE',  ( 0.0000000000000000000, 0.0000000000000000000, 1.000000000000000000 ) ) ;
#168 = EDGE_LOOP ( 'NONE', ( #136 ) ) ;
#169 = DIRECTION ( 'NONE',  ( 0.0000000000000000000, 1.000000000000000000, 0.0000000000000000000 ) ) ;
#170 = CARTESIAN_POINT ( 'NONE',  ( 0.0000000000000000000, -5.074999999999992200, 0.0000000000000000000 ) ) ;
#171 = FACE_BOUND ( 'NONE', #51, .T. ) ;
#172 = CARTESIAN_POINT ( 'NONE',  ( 0.0000000000000000000, -3.311805698386590900, 0.0000000000000000000 ) ) ;
#173 = COLOUR_RGB ( '',0.7921568627450980000, 0.8196078431372548800, 0.9333333333333333500 ) ;
#174 = FACE_OUTER_BOUND ( 'NONE', #334, .T. ) ;
#175 = CIRCLE ( 'NONE', #70, 64.20000000000000300 ) ;
#176 = ADVANCED_FACE ( 'NONE', ( #19, #155 ), #239, .T. ) ;
#177 = CARTESIAN_POINT ( 'NONE',  ( 0.0000000000000000000, -11.20000000000000800, 0.0000000000000000000 ) ) ;
#178 = FACE_BOUND ( 'NONE', #118, .T. ) ;
#179 = DIRECTION ( 'NONE',  ( 0.0000000000000000000, 1.000000000000000000, 0.0000000000000000000 ) ) ;
#180 = ADVANCED_FACE ( 'NONE', ( #236, #171 ), #296, .T. ) ;
#181 = DIRECTION ( 'NONE',  ( 0.0000000000000000000, 0.0000000000000000000, -1.000000000000000000 ) ) ;
#182 = AXIS2_PLACEMENT_3D ( 'NONE', #162, #83, #138 ) ;
#183 = CYLINDRICAL_SURFACE ( 'NONE', #270, 51.07500000000000300 ) ;
#184 = ORIENTED_EDGE ( 'NONE', *, *, #145, .T. ) ;
#185 = CARTESIAN_POINT ( 'NONE',  ( 0.0000000000000000000, -3.311805698386590900, 65.00000000000000000 ) ) ;
#186 = CARTESIAN_POINT ( 'NONE',  ( 0.0000000000000000000, -7.000000000000008900, -53.00000000000002800 ) ) ;
#187 = CARTESIAN_POINT ( 'NONE',  ( 0.0000000000000000000, 146.0179074487688800, 0.0000000000000000000 ) ) ;
#188 = EDGE_CURVE ( 'NONE', #208, #208, #15, .T. ) ;
#189 = FACE_OUTER_BOUND ( 'NONE', #127, .T. ) ;
#190 = FACE_OUTER_BOUND ( 'NONE', #142, .T. ) ;
#191 = FILL_AREA_STYLE ('',( #134 ) ) ;
#192 = EDGE_LOOP ( 'NONE', ( #110 ) ) ;
#193 = CARTESIAN_POINT ( 'NONE',  ( 0.0000000000000000000, -0.8000000000000072600, 65.00000000000000000 ) ) ;
#194 = STYLED_ITEM ( 'NONE', ( #11 ), #252 ) ;
#195 = VERTEX_POINT ( 'NONE', #256 ) ;
#196 = EDGE_LOOP ( 'NONE', ( #23 ) ) ;
#197 = ORIENTED_EDGE ( 'NONE', *, *, #292, .F. ) ;
#198 = CARTESIAN_POINT ( 'NONE',  ( 0.0000000000000000000, -0.8000000000000072600, 0.0000000000000000000 ) ) ;
#199 = PRODUCT_CONTEXT ( 'NONE', #6, 'mechanical' ) ;
#200 = DIRECTION ( 'NONE',  ( 0.0000000000000000000, 0.0000000000000000000, 1.000000000000000000 ) ) ;
#201 = AXIS2_PLACEMENT_3D ( 'NONE', #279, #223, #165 ) ;
#202 = ADVANCED_FACE ( 'NONE', ( #311, #178 ), #79, .T. ) ;
#203 = FACE_OUTER_BOUND ( 'NONE', #101, .T. ) ;
#204 = PRODUCT_DEFINITION_CONTEXT ( 'detailed design', #285, 'design' ) ;
#205 = CARTESIAN_POINT ( 'NONE',  ( 0.0000000000000000000, -5.000000000000008000, 0.0000000000000000000 ) ) ;
#206 = ADVANCED_FACE ( 'NONE', ( #302, #84 ), #152, .T. ) ;
#207 = DIRECTION ( 'NONE',  ( 0.0000000000000000000, 1.000000000000000000, 0.0000000000000000000 ) ) ;
#208 = VERTEX_POINT ( 'NONE', #1 ) ;
#209 = EDGE_LOOP ( 'NONE', ( #269 ) ) ;
#210 = CARTESIAN_POINT ( 'NONE',  ( 51.07500000000000300, -6.889063427038953100E-015, 0.0000000000000000000 ) ) ;
#211 = ADVANCED_FACE ( 'NONE', ( #315, #158 ), #347, .T. ) ;
#212 = UNCERTAINTY_MEASURE_WITH_UNIT (LENGTH_MEASURE( 1.000000000000000100E-005 ), #293, 'distance_accuracy_value', 'NONE');
#213 = CARTESIAN_POINT ( 'NONE',  ( 0.0000000000000000000, -12.50102254169809700, 0.0000000000000000000 ) ) ;
#214 = CIRCLE ( 'NONE', #157, 54.10000000000000100 ) ;
#215 = EDGE_CURVE ( 'NONE', #289, #289, #45, .T. ) ;
#216 = DIRECTION ( 'NONE',  ( 0.0000000000000000000, -1.000000000000000000, -0.0000000000000000000 ) ) ;
#217 = EDGE_LOOP ( 'NONE', ( #240 ) ) ;
#218 = DIRECTION ( 'NONE',  ( 0.0000000000000000000, 0.0000000000000000000, 1.000000000000000000 ) ) ;
#219 = VERTEX_POINT ( 'NONE', #251 ) ;
#220 = ORIENTED_EDGE ( 'NONE', *, *, #27, .T. ) ;
#221 = AXIS2_PLACEMENT_3D ( 'NONE', #68, #72, #318 ) ;
#222 = CARTESIAN_POINT ( 'NONE',  ( 0.0000000000000000000, -6.489583207305955200, 64.82352941176471000 ) ) ;
#223 = DIRECTION ( 'NONE',  ( 0.0000000000000000000, 1.000000000000000000, 0.0000000000000000000 ) ) ;
#224 = SURFACE_STYLE_FILL_AREA ( #48 ) ;
#225 = FACE_BOUND ( 'NONE', #313, .T. ) ;
#226 = AXIS2_PLACEMENT_3D ( 'NONE', #213, #69, #133 ) ;
#227 = DIRECTION ( 'NONE',  ( 0.0000000000000000000, 0.0000000000000000000, 1.000000000000000000 ) ) ;
#228 = DIRECTION ( 'NONE',  ( 0.0000000000000000000, 0.0000000000000000000, 1.000000000000000000 ) ) ;
#229 = VERTEX_POINT ( 'NONE', #186 ) ;
#230 = ORIENTED_EDGE ( 'NONE', *, *, #292, .T. ) ;
#231 = DIRECTION ( 'NONE',  ( 0.0000000000000000000, 0.0000000000000000000, -1.000000000000000000 ) ) ;
#232 = CARTESIAN_POINT ( 'NONE',  ( 0.0000000000000000000, -12.50102254169809700, 0.0000000000000000000 ) ) ;
#233 = STYLED_ITEM ( 'NONE', ( #50 ), #37 ) ;
#234 = DIRECTION ( 'NONE',  ( 0.0000000000000000000, 0.0000000000000000000, 1.000000000000000000 ) ) ;
#235 = DIRECTION ( 'NONE',  ( 0.0000000000000000000, 1.000000000000000000, 0.0000000000000000000 ) ) ;
#236 = FACE_OUTER_BOUND ( 'NONE', #131, .T. ) ;
#237 = CYLINDRICAL_SURFACE ( 'NONE', #241, 65.00000000000000000 ) ;
#238 = EDGE_CURVE ( 'NONE', #7, #7, #47, .T. ) ;
#239 = TOROIDAL_SURFACE ( 'NONE', #89, 64.79999999999999700, 0.2000000000000074200 ) ;
#240 = ORIENTED_EDGE ( 'NONE', *, *, #10, .F. ) ;
#241 = AXIS2_PLACEMENT_3D ( 'NONE', #232, #169, #228 ) ;
#242 = CARTESIAN_POINT ( 'NONE',  ( 0.0000000000000000000, -10.00000000000000900, 0.0000000000000000000 ) ) ;
#243 = UNCERTAINTY_MEASURE_WITH_UNIT (LENGTH_MEASURE( 1.000000000000000100E-005 ), #304, 'distance_accuracy_value', 'NONE');
#244 = CARTESIAN_POINT ( 'NONE',  ( 0.0000000000000000000, -6.938893903907228400E-015, 0.0000000000000000000 ) ) ;
#245 = CLOSED_SHELL ( 'NONE', ( #40, #180, #121, #342, #211, #202, #18, #176, #148, #125, #42, #206, #97, #317, #123 ) ) ;
#246 = PRESENTATION_LAYER_ASSIGNMENT (  '', '', ( #194 ) ) ;
#247 = SURFACE_SIDE_STYLE ('',( #224 ) ) ;
#248 = ORIENTED_EDGE ( 'NONE', *, *, #312, .T. ) ;
#249 = FACE_OUTER_BOUND ( 'NONE', #305, .T. ) ;
#250 = CARTESIAN_POINT ( 'NONE',  ( 0.0000000000000000000, -12.50102254169809700, 0.0000000000000000000 ) ) ;
#251 = CARTESIAN_POINT ( 'NONE',  ( 0.0000000000000000000, -11.20000000000000800, 65.00000000000000000 ) ) ;
#252 = MANIFOLD_SOLID_BREP ( 'Chanfrein1', #245 ) ;
#253 = EDGE_CURVE ( 'NONE', #65, #65, #63, .T. ) ;
#254 = DIRECTION ( 'NONE',  ( 0.0000000000000000000, 0.0000000000000000000, -1.000000000000000000 ) ) ;
#255 = ORIENTED_EDGE ( 'NONE', *, *, #238, .T. ) ;
#256 = CARTESIAN_POINT ( 'NONE',  ( 0.0000000000000000000, -7.000000000000006200, -54.10000000000000100 ) ) ;
#257 = PLANE ( 'NONE',  #102 ) ;
#258 = AXIS2_PLACEMENT_3D ( 'NONE', #294, #74, #321 ) ;
#259 = EDGE_CURVE ( 'NONE', #195, #195, #350, .T. ) ;
#260 = DIRECTION ( 'NONE',  ( 0.0000000000000000000, 0.0000000000000000000, 1.000000000000000000 ) ) ;
#261 = AXIS2_PLACEMENT_3D ( 'NONE', #187, #28, #88 ) ;
#262 = ORIENTED_EDGE ( 'NONE', *, *, #36, .T. ) ;
#263 = TOROIDAL_SURFACE ( 'NONE', #49, 64.79999999999999700, 0.2000000000000078100 ) ;
#264 = MECHANICAL_DESIGN_GEOMETRIC_PRESENTATION_REPRESENTATION (  '', ( #194 ), #320 ) ;
#265 = EDGE_CURVE ( 'NONE', #129, #129, #166, .T. ) ;
#266 = CIRCLE ( 'NONE', #182, 51.07500000000000300 ) ;
#267 = CIRCLE ( 'NONE', #73, 51.07500000000000300 ) ;
#268 =( NAMED_UNIT ( * ) PLANE_ANGLE_UNIT ( ) SI_UNIT ( $, .RADIAN. ) );
#269 = ORIENTED_EDGE ( 'NONE', *, *, #80, .F. ) ;
#270 = AXIS2_PLACEMENT_3D ( 'NONE', #106, #34, #82 ) ;
#271 = FACE_OUTER_BOUND ( 'NONE', #272, .T. ) ;
#272 = EDGE_LOOP ( 'NONE', ( #156 ) ) ;
#273 = DIRECTION ( 'NONE',  ( 0.0000000000000000000, 1.000000000000000000, 0.0000000000000000000 ) ) ;
#274 = DIRECTION ( 'NONE',  ( 0.0000000000000000000, 1.000000000000000000, 0.0000000000000000000 ) ) ;
#275 = VERTEX_POINT ( 'NONE', #193 ) ;
#276 = AXIS2_PLACEMENT_3D ( 'NONE', #301, #160, #254 ) ;
#277 = CIRCLE ( 'NONE', #91, 65.00000000000000000 ) ;
#278 = CARTESIAN_POINT ( 'NONE',  ( 0.0000000000000000000, -6.938893903907228400E-015, 64.20000000000000300 ) ) ;
#279 = CARTESIAN_POINT ( 'NONE',  ( 0.0000000000000000000, -11.20000000000000800, 0.0000000000000000000 ) ) ;
#280 = DIRECTION ( 'NONE',  ( 1.000000000000000000, 0.0000000000000000000, 0.0000000000000000000 ) ) ;
#281 = ORIENTED_EDGE ( 'NONE', *, *, #10, .T. ) ;
#282 = ORIENTED_EDGE ( 'NONE', *, *, #80, .T. ) ;
#283 = CARTESIAN_POINT ( 'NONE',  ( 51.00000000000000000, -7.000000000000008900, 0.0000000000000000000 ) ) ;
#284 = DIRECTION ( 'NONE',  ( 0.0000000000000000000, 0.0000000000000000000, -1.000000000000000000 ) ) ;
#285 = APPLICATION_CONTEXT ( 'automotive_design' ) ;
#286 = TOROIDAL_SURFACE ( 'NONE', #326, 65.00000000000000000, 1.499999999999994900 ) ;
#287 = ORIENTED_EDGE ( 'NONE', *, *, #188, .T. ) ;
#288 = DIRECTION ( 'NONE',  ( -0.0000000000000000000, 1.000000000000000000, -0.0000000000000000000 ) ) ;
#289 = VERTEX_POINT ( 'NONE', #59 ) ;
#290 = ORIENTED_EDGE ( 'NONE', *, *, #322, .T. ) ;
#291 = EDGE_LOOP ( 'NONE', ( #41 ) ) ;
#292 = EDGE_CURVE ( 'NONE', #149, #149, #343, .T. ) ;
#293 =( LENGTH_UNIT ( ) NAMED_UNIT ( * ) SI_UNIT ( .MILLI., .METRE. ) );
#294 = CARTESIAN_POINT ( 'NONE',  ( 0.0000000000000000000, -3.311805698386590900, 0.0000000000000000000 ) ) ;
#295 = FACE_OUTER_BOUND ( 'NONE', #345, .T. ) ;
#296 = PLANE ( 'NONE',  #9 ) ;
#297 = PRODUCT_DEFINITION_FORMATION_WITH_SPECIFIED_SOURCE ( 'ANY', '', #26, .NOT_KNOWN. ) ;
#298 = DIRECTION ( 'NONE',  ( 0.0000000000000000000, 0.0000000000000000000, 1.000000000000000000 ) ) ;
#299 = EDGE_LOOP ( 'NONE', ( #282 ) ) ;
#300 = AXIS2_PLACEMENT_3D ( 'NONE', #244, #154, #181 ) ;
#301 = CARTESIAN_POINT ( 'NONE',  ( 0.0000000000000000000, -7.000000000000008900, 0.0000000000000000000 ) ) ;
#302 = FACE_BOUND ( 'NONE', #299, .T. ) ;
#303 = FACE_OUTER_BOUND ( 'NONE', #192, .T. ) ;
#304 =( LENGTH_UNIT ( ) NAMED_UNIT ( * ) SI_UNIT ( .MILLI., .METRE. ) );
#305 = EDGE_LOOP ( 'NONE', ( #230 ) ) ;
#306 = CARTESIAN_POINT ( 'NONE',  ( 0.0000000000000000000, 0.0000000000000000000, 0.0000000000000000000 ) ) ;
#307 = CARTESIAN_POINT ( 'NONE',  ( 0.0000000000000000000, -12.00000000000000900, 0.0000000000000000000 ) ) ;
#308 = PLANE ( 'NONE',  #86 ) ;
#309 = PRESENTATION_LAYER_ASSIGNMENT (  '', '', ( #233 ) ) ;
#310 = DIRECTION ( 'NONE',  ( 0.0000000000000000000, -1.000000000000000000, -0.0000000000000000000 ) ) ;
#311 = FACE_OUTER_BOUND ( 'NONE', #20, .T. ) ;
#312 = EDGE_CURVE ( 'NONE', #140, #140, #266, .T. ) ;
#313 = EDGE_LOOP ( 'NONE', ( #316 ) ) ;
#314 = PRODUCT_RELATED_PRODUCT_CATEGORY ( 'part', '', ( #26 ) ) ;
#315 = FACE_OUTER_BOUND ( 'NONE', #150, .T. ) ;
#316 = ORIENTED_EDGE ( 'NONE', *, *, #312, .F. ) ;
#317 = ADVANCED_FACE ( 'NONE', ( #22, #100 ), #115, .F. ) ;
#318 = DIRECTION ( 'NONE',  ( 0.0000000000000000000, 0.0000000000000000000, 1.000000000000000000 ) ) ;
#319 = CONICAL_SURFACE ( 'NONE', #151, 51.07500000000000300, 0.7853981633974501700 ) ;
#320 =( GEOMETRIC_REPRESENTATION_CONTEXT ( 3 ) GLOBAL_UNCERTAINTY_ASSIGNED_CONTEXT ( ( #212 ) ) GLOBAL_UNIT_ASSIGNED_CONTEXT ( ( #293, #268, #128 ) ) REPRESENTATION_CONTEXT ( 'NONE', 'WORKASPACE' ) );
#321 = DIRECTION ( 'NONE',  ( 0.0000000000000000000, 0.0000000000000000000, 1.000000000000000000 ) ) ;
#322 = EDGE_CURVE ( 'NONE', #229, #229, #327, .T. ) ;
#323 = DIRECTION ( 'NONE',  ( 0.0000000000000000000, 1.000000000000000000, 0.0000000000000000000 ) ) ;
#324 = CARTESIAN_POINT ( 'NONE',  ( 62.50000000000000000, -10.00000000000000900, 0.0000000000000000000 ) ) ;
#325 = EDGE_LOOP ( 'NONE', ( #248 ) ) ;
#326 = AXIS2_PLACEMENT_3D ( 'NONE', #205, #207, #200 ) ;
#327 = CIRCLE ( 'NONE', #276, 53.00000000000002800 ) ;
#328 = SURFACE_SIDE_STYLE ('',( #32 ) ) ;
#329 = DIRECTION ( 'NONE',  ( 0.0000000000000000000, 1.000000000000000000, 0.0000000000000000000 ) ) ;
#330 =( NAMED_UNIT ( * ) PLANE_ANGLE_UNIT ( ) SI_UNIT ( $, .RADIAN. ) );
#331 = CIRCLE ( 'NONE', #201, 65.00000000000000000 ) ;
#332 = DIRECTION ( 'NONE',  ( 0.0000000000000000000, 0.0000000000000000000, 1.000000000000000000 ) ) ;
#333 = ORIENTED_EDGE ( 'NONE', *, *, #253, .F. ) ;
#334 = EDGE_LOOP ( 'NONE', ( #281 ) ) ;
#335 = DIRECTION ( 'NONE',  ( 0.0000000000000000000, 0.0000000000000000000, -1.000000000000000000 ) ) ;
#336 = DIRECTION ( 'NONE',  ( 0.0000000000000000000, 1.000000000000000000, 0.0000000000000000000 ) ) ;
#337 = DIRECTION ( 'NONE',  ( 0.0000000000000000000, -1.000000000000000000, -0.0000000000000000000 ) ) ;
#338 = FACE_OUTER_BOUND ( 'NONE', #143, .T. ) ;
#339 = DIRECTION ( 'NONE',  ( 0.0000000000000000000, 0.0000000000000000000, -1.000000000000000000 ) ) ;
#340 = DIRECTION ( 'NONE',  ( 0.0000000000000000000, 1.000000000000000000, 0.0000000000000000000 ) ) ;
#341 = UNCERTAINTY_MEASURE_WITH_UNIT (LENGTH_MEASURE( 1.000000000000000100E-005 ), #107, 'distance_accuracy_value', 'NONE');
#342 = ADVANCED_FACE ( 'NONE', ( #56, #189 ), #183, .F. ) ;
#343 = CIRCLE ( 'NONE', #120, 65.00000000000000000 ) ;
#344 = EDGE_LOOP ( 'NONE', ( #122 ) ) ;
#345 = EDGE_LOOP ( 'NONE', ( #61 ) ) ;
#346 = EDGE_LOOP ( 'NONE', ( #255 ) ) ;
#347 = PLANE ( 'NONE',  #39 ) ;
#348 = EDGE_CURVE ( 'NONE', #219, #219, #331, .T. ) ;
#349 = DIRECTION ( 'NONE',  ( 0.0000000000000000000, 0.0000000000000000000, -1.000000000000000000 ) ) ;
#350 = CIRCLE ( 'NONE', #161, 54.10000000000000100 ) ;
#351 = CYLINDRICAL_SURFACE ( 'NONE', #261, 54.10000000000000100 ) ;
#352 = APPLICATION_PROTOCOL_DEFINITION ( 'draft international standard', 'automotive_design', 1998, #6 ) ;
#353 = VERTEX_POINT ( 'NONE', #58 ) ;
#354 = ORIENTED_EDGE ( 'NONE', *, *, #265, .F. ) ;
ENDSEC;
END-ISO-10303-21;
